ISO-10303-21;
HEADER;
FILE_DESCRIPTION (( 'STEP AP203' ),
    '1' );
FILE_NAME ('QB-CTZHWP-50.8-852-M.STEP',
    '2020-12-24T01:38:40',
    ( '' ),
    ( '' ),
    'SwSTEP 2.0',
    'SolidWorks 2020',
    '' );
FILE_SCHEMA (( 'CONFIG_CONTROL_DESIGN' ));
ENDSEC;

DATA;
#1 = DIRECTION ( 'NONE',  ( -1.000000000000000000, -0.000000000000000000, -0.000000000000000000 ) ) ;
#2 = EDGE_CURVE ( 'NONE', #116, #147, #92, .T. ) ;
#3 = MANIFOLD_SOLID_BREP ( 'Ðý×', #169 ) ;
#4 = COORDINATED_UNIVERSAL_TIME_OFFSET ( 8, 0, .AHEAD. ) ;
#5 = PRODUCT ( 'QB-CTZHWP-50.8-852-M', 'QB-CTZHWP-50.8-852-M', '', ( #159 ) ) ;
#6 = APPROVAL ( #31, 'UNSPECIFIED' ) ;
#7 = DIRECTION ( 'NONE',  ( 0.000000000000000000, 0.000000000000000000, 1.000000000000000000 ) ) ;
#8 = CC_DESIGN_APPROVAL ( #23, ( #71 ) ) ;
#9 = PERSON ( 'UNSPECIFIED', 'UNSPECIFIED', 'UNSPECIFIED', ('UNSPECIFIED'), ('UNSPECIFIED'), ('UNSPECIFIED') ) ;
#10 = CARTESIAN_POINT ( 'NONE',  ( 3.000000000000002665, 0.000000000000000000, 0.000000000000000000 ) ) ;
#11 = ADVANCED_BREP_SHAPE_REPRESENTATION ( 'QB-CTZHWP-50.8-852-M', ( #3, #101 ), #134 ) ;
#12 = APPROVAL_DATE_TIME ( #108, #23 ) ;
#13 = AXIS2_PLACEMENT_3D ( 'NONE', #140, #98, #125 ) ;
#14 = AXIS2_PLACEMENT_3D ( 'NONE', #61, #30, #33 ) ;
#15 = LINE ( 'NONE', #28, #154 ) ;
#16 = CC_DESIGN_PERSON_AND_ORGANIZATION_ASSIGNMENT ( #152, #49, ( #71 ) ) ;
#17 = PERSON_AND_ORGANIZATION ( #9, #144 ) ;
#18 = CYLINDRICAL_SURFACE ( 'NONE', #155, 25.39999999999999858 ) ;
#19 = LOCAL_TIME ( 9, 38, 40.00000000000000000, #138 ) ;
#20 = DIRECTION ( 'NONE',  ( -1.000000000000000000, -0.000000000000000000, -0.000000000000000000 ) ) ;
#21 = ORIENTED_EDGE ( 'NONE', *, *, #160, .F. ) ;
#22 = DIRECTION ( 'NONE',  ( 0.000000000000000000, 0.000000000000000000, 1.000000000000000000 ) ) ;
#23 = APPROVAL ( #95, 'UNSPECIFIED' ) ;
#24 = LOCAL_TIME ( 9, 38, 40.00000000000000000, #50 ) ;
#25 = SHAPE_DEFINITION_REPRESENTATION ( #128, #11 ) ;
#26 = PERSON_AND_ORGANIZATION ( #9, #144 ) ;
#27 = APPROVAL_DATE_TIME ( #41, #148 ) ;
#28 = CARTESIAN_POINT ( 'NONE',  ( -3.000000000000000000, 3.110602869834276865E-15, -25.39999999999999858 ) ) ;
#29 = FACE_OUTER_BOUND ( 'NONE', #77, .T. ) ;
#30 = DIRECTION ( 'NONE',  ( -1.000000000000000000, -0.000000000000000000, -0.000000000000000000 ) ) ;
#31 = APPROVAL_STATUS ( 'not_yet_approved' ) ;
#32 = CC_DESIGN_PERSON_AND_ORGANIZATION_ASSIGNMENT ( #17, #158, ( #5 ) ) ;
#33 = DIRECTION ( 'NONE',  ( 0.000000000000000000, 0.000000000000000000, 1.000000000000000000 ) ) ;
#34 = CC_DESIGN_PERSON_AND_ORGANIZATION_ASSIGNMENT ( #164, #91, ( #71 ) ) ;
#35 = CARTESIAN_POINT ( 'NONE',  ( -3.000000000000000000, 0.000000000000000000, 0.000000000000000000 ) ) ;
#36 = DIRECTION ( 'NONE',  ( 0.000000000000000000, 0.000000000000000000, 1.000000000000000000 ) ) ;
#37 = EDGE_CURVE ( 'NONE', #131, #90, #43, .T. ) ;
#38 = ORIENTED_EDGE ( 'NONE', *, *, #120, .T. ) ;
#39 = EDGE_LOOP ( 'NONE', ( #47, #171, #162, #63 ) ) ;
#40 = ADVANCED_FACE ( 'NONE', ( #64 ), #119, .T. ) ;
#41 = DATE_AND_TIME ( #96, #79 ) ;
#42 = CC_DESIGN_APPROVAL ( #148, ( #130 ) ) ;
#43 = CIRCLE ( 'NONE', #113, 25.39999999999999858 ) ;
#44 = APPROVAL_STATUS ( 'not_yet_approved' ) ;
#45 = APPLICATION_PROTOCOL_DEFINITION ( 'international standard', 'config_control_design', 1994, #143 ) ;
#46 = CARTESIAN_POINT ( 'NONE',  ( 3.000000000000002665, 0.000000000000000000, 25.39999999999999858 ) ) ;
#47 = ORIENTED_EDGE ( 'NONE', *, *, #67, .T. ) ;
#48 = DATE_TIME_ROLE ( 'creation_date' ) ;
#49 = PERSON_AND_ORGANIZATION_ROLE ( 'creator' ) ;
#50 = COORDINATED_UNIVERSAL_TIME_OFFSET ( 8, 0, .AHEAD. ) ;
#51 =( NAMED_UNIT ( * ) PLANE_ANGLE_UNIT ( ) SI_UNIT ( $, .RADIAN. ) );
#52 = LOCAL_TIME ( 9, 38, 40.00000000000000000, #123 ) ;
#53 = CC_DESIGN_DATE_AND_TIME_ASSIGNMENT ( #136, #48, ( #150 ) ) ;
#54 =( NAMED_UNIT ( * ) SI_UNIT ( $, .STERADIAN. ) SOLID_ANGLE_UNIT ( ) );
#55 = DIRECTION ( 'NONE',  ( -1.000000000000000000, -0.000000000000000000, -0.000000000000000000 ) ) ;
#56 = DIRECTION ( 'NONE',  ( 1.000000000000000000, 0.000000000000000000, 0.000000000000000000 ) ) ;
#57 = CARTESIAN_POINT ( 'NONE',  ( 0.000000000000000000, 0.000000000000000000, 0.000000000000000000 ) ) ;
#58 = AXIS2_PLACEMENT_3D ( 'NONE', #141, #56, #167 ) ;
#59 = APPROVAL_PERSON_ORGANIZATION ( #93, #148, #66 ) ;
#60 = APPLICATION_CONTEXT ( 'configuration controlled 3d designs of mechanical parts and assemblies' ) ;
#61 = CARTESIAN_POINT ( 'NONE',  ( -3.000000000000002665, 0.000000000000000000, 0.000000000000000000 ) ) ;
#62 = DESIGN_CONTEXT ( 'detailed design', #60, 'design' ) ;
#63 = ORIENTED_EDGE ( 'NONE', *, *, #120, .F. ) ;
#64 = FACE_OUTER_BOUND ( 'NONE', #117, .T. ) ;
#65 = PERSON_AND_ORGANIZATION_ROLE ( 'classification_officer' ) ;
#66 = APPROVAL_ROLE ( '' ) ;
#67 = EDGE_CURVE ( 'NONE', #90, #131, #107, .T. ) ;
#68 = CIRCLE ( 'NONE', #14, 25.39999999999999858 ) ;
#69 = DIRECTION ( 'NONE',  ( 0.000000000000000000, 0.000000000000000000, 1.000000000000000000 ) ) ;
#70 =( LENGTH_UNIT ( ) NAMED_UNIT ( * ) SI_UNIT ( .MILLI., .METRE. ) );
#71 = PRODUCT_DEFINITION_FORMATION_WITH_SPECIFIED_SOURCE ( 'ANY', '', #5, .NOT_KNOWN. ) ;
#72 = PRODUCT_RELATED_PRODUCT_CATEGORY ( 'detail', '', ( #5 ) ) ;
#73 = LINE ( 'NONE', #175, #94 ) ;
#74 = ORIENTED_EDGE ( 'NONE', *, *, #37, .F. ) ;
#75 = EDGE_LOOP ( 'NONE', ( #103, #89 ) ) ;
#76 = CC_DESIGN_DATE_AND_TIME_ASSIGNMENT ( #109, #151, ( #130 ) ) ;
#77 = EDGE_LOOP ( 'NONE', ( #118, #74 ) ) ;
#78 = EDGE_CURVE ( 'NONE', #147, #116, #68, .T. ) ;
#79 = LOCAL_TIME ( 9, 38, 40.00000000000000000, #121 ) ;
#80 = ADVANCED_FACE ( 'NONE', ( #145 ), #83, .F. ) ;
#81 = APPROVAL_ROLE ( '' ) ;
#82 = CARTESIAN_POINT ( 'NONE',  ( -3.000000000000002665, 0.000000000000000000, 25.39999999999999858 ) ) ;
#83 = PLANE ( 'NONE',  #58 ) ;
#84 = DIRECTION ( 'NONE',  ( 0.000000000000000000, 0.000000000000000000, 1.000000000000000000 ) ) ;
#85 = APPROVAL_ROLE ( '' ) ;
#86 = FACE_OUTER_BOUND ( 'NONE', #39, .T. ) ;
#87 = UNCERTAINTY_MEASURE_WITH_UNIT (LENGTH_MEASURE( 1.000000000000000082E-05 ), #70, 'distance_accuracy_value', 'NONE');
#88 = DIRECTION ( 'NONE',  ( 0.000000000000000000, 0.000000000000000000, 1.000000000000000000 ) ) ;
#89 = ORIENTED_EDGE ( 'NONE', *, *, #2, .T. ) ;
#90 = VERTEX_POINT ( 'NONE', #46 ) ;
#91 = PERSON_AND_ORGANIZATION_ROLE ( 'design_supplier' ) ;
#92 = CIRCLE ( 'NONE', #115, 25.39999999999999858 ) ;
#93 = PERSON_AND_ORGANIZATION ( #9, #144 ) ;
#94 = VECTOR ( 'NONE', #55, 1000.000000000000000 ) ;
#95 = APPROVAL_STATUS ( 'not_yet_approved' ) ;
#96 = CALENDAR_DATE ( 2020, 24, 12 ) ;
#97 = DATE_AND_TIME ( #168, #157 ) ;
#98 = DIRECTION ( 'NONE',  ( -1.000000000000000000, 0.000000000000000000, -0.000000000000000000 ) ) ;
#99 = AXIS2_PLACEMENT_3D ( 'NONE', #161, #146, #36 ) ;
#100 = CARTESIAN_POINT ( 'NONE',  ( 3.000000000000002665, 3.110602869834276865E-15, -25.39999999999999858 ) ) ;
#101 = AXIS2_PLACEMENT_3D ( 'NONE', #57, #84, #142 ) ;
#102 = DIRECTION ( 'NONE',  ( -1.000000000000000000, -0.000000000000000000, -0.000000000000000000 ) ) ;
#103 = ORIENTED_EDGE ( 'NONE', *, *, #78, .T. ) ;
#104 = ORIENTED_EDGE ( 'NONE', *, *, #2, .F. ) ;
#105 = CC_DESIGN_APPROVAL ( #6, ( #150 ) ) ;
#106 = APPROVAL_PERSON_ORGANIZATION ( #139, #6, #85 ) ;
#107 = CIRCLE ( 'NONE', #99, 25.39999999999999858 ) ;
#108 = DATE_AND_TIME ( #153, #24 ) ;
#109 = DATE_AND_TIME ( #173, #52 ) ;
#110 = CARTESIAN_POINT ( 'NONE',  ( -3.000000000000000000, 0.000000000000000000, 0.000000000000000000 ) ) ;
#111 = APPLICATION_PROTOCOL_DEFINITION ( 'international standard', 'config_control_design', 1994, #60 ) ;
#112 = APPROVAL_PERSON_ORGANIZATION ( #172, #23, #81 ) ;
#113 = AXIS2_PLACEMENT_3D ( 'NONE', #10, #129, #7 ) ;
#114 = ADVANCED_FACE ( 'NONE', ( #86 ), #18, .T. ) ;
#115 = AXIS2_PLACEMENT_3D ( 'NONE', #149, #20, #22 ) ;
#116 = VERTEX_POINT ( 'NONE', #126 ) ;
#117 = EDGE_LOOP ( 'NONE', ( #21, #133, #38, #104 ) ) ;
#118 = ORIENTED_EDGE ( 'NONE', *, *, #67, .F. ) ;
#119 = CYLINDRICAL_SURFACE ( 'NONE', #132, 25.39999999999999858 ) ;
#120 = EDGE_CURVE ( 'NONE', #90, #147, #73, .T. ) ;
#121 = COORDINATED_UNIVERSAL_TIME_OFFSET ( 8, 0, .AHEAD. ) ;
#122 = PERSON_AND_ORGANIZATION ( #9, #144 ) ;
#123 = COORDINATED_UNIVERSAL_TIME_OFFSET ( 8, 0, .AHEAD. ) ;
#124 = ADVANCED_FACE ( 'NONE', ( #29 ), #166, .F. ) ;
#125 = DIRECTION ( 'NONE',  ( -0.000000000000000000, 0.000000000000000000, 1.000000000000000000 ) ) ;
#126 = CARTESIAN_POINT ( 'NONE',  ( -3.000000000000002665, 3.110602869834276865E-15, -25.39999999999999858 ) ) ;
#127 = DIRECTION ( 'NONE',  ( -1.000000000000000000, -0.000000000000000000, -0.000000000000000000 ) ) ;
#128 = PRODUCT_DEFINITION_SHAPE ( 'NONE', 'NONE',  #150 ) ;
#129 = DIRECTION ( 'NONE',  ( -1.000000000000000000, -0.000000000000000000, -0.000000000000000000 ) ) ;
#130 = SECURITY_CLASSIFICATION ( '', '', #137 ) ;
#131 = VERTEX_POINT ( 'NONE', #100 ) ;
#132 = AXIS2_PLACEMENT_3D ( 'NONE', #35, #102, #88 ) ;
#133 = ORIENTED_EDGE ( 'NONE', *, *, #37, .T. ) ;
#134 =( GEOMETRIC_REPRESENTATION_CONTEXT ( 3 ) GLOBAL_UNCERTAINTY_ASSIGNED_CONTEXT ( ( #87 ) ) GLOBAL_UNIT_ASSIGNED_CONTEXT ( ( #70, #51, #54 ) ) REPRESENTATION_CONTEXT ( 'NONE', 'WORKASPACE' ) );
#135 = CALENDAR_DATE ( 2020, 24, 12 ) ;
#136 = DATE_AND_TIME ( #135, #19 ) ;
#137 = SECURITY_CLASSIFICATION_LEVEL ( 'unclassified' ) ;
#138 = COORDINATED_UNIVERSAL_TIME_OFFSET ( 8, 0, .AHEAD. ) ;
#139 = PERSON_AND_ORGANIZATION ( #9, #144 ) ;
#140 = CARTESIAN_POINT ( 'NONE',  ( 3.000000000000001332, 25.39999999999999858, 0.000000000000000000 ) ) ;
#141 = CARTESIAN_POINT ( 'NONE',  ( -3.000000000000001332, 25.39999999999999858, 0.000000000000000000 ) ) ;
#142 = DIRECTION ( 'NONE',  ( 1.000000000000000000, 0.000000000000000000, 0.000000000000000000 ) ) ;
#143 = APPLICATION_CONTEXT ( 'configuration controlled 3d designs of mechanical parts and assemblies' ) ;
#144 = ORGANIZATION ( 'UNSPECIFIED', 'UNSPECIFIED', '' ) ;
#145 = FACE_OUTER_BOUND ( 'NONE', #75, .T. ) ;
#146 = DIRECTION ( 'NONE',  ( -1.000000000000000000, -0.000000000000000000, -0.000000000000000000 ) ) ;
#147 = VERTEX_POINT ( 'NONE', #82 ) ;
#148 = APPROVAL ( #44, 'UNSPECIFIED' ) ;
#149 = CARTESIAN_POINT ( 'NONE',  ( -3.000000000000002665, 0.000000000000000000, 0.000000000000000000 ) ) ;
#150 = PRODUCT_DEFINITION ( 'UNKNOWN', '', #71, #62 ) ;
#151 = DATE_TIME_ROLE ( 'classification_date' ) ;
#152 = PERSON_AND_ORGANIZATION ( #9, #144 ) ;
#153 = CALENDAR_DATE ( 2020, 24, 12 ) ;
#154 = VECTOR ( 'NONE', #1, 1000.000000000000000 ) ;
#155 = AXIS2_PLACEMENT_3D ( 'NONE', #110, #127, #69 ) ;
#156 = APPROVAL_DATE_TIME ( #97, #6 ) ;
#157 = LOCAL_TIME ( 9, 38, 40.00000000000000000, #4 ) ;
#158 = PERSON_AND_ORGANIZATION_ROLE ( 'design_owner' ) ;
#159 = MECHANICAL_CONTEXT ( 'NONE', #143, 'mechanical' ) ;
#160 = EDGE_CURVE ( 'NONE', #131, #116, #15, .T. ) ;
#161 = CARTESIAN_POINT ( 'NONE',  ( 3.000000000000002665, 0.000000000000000000, 0.000000000000000000 ) ) ;
#162 = ORIENTED_EDGE ( 'NONE', *, *, #78, .F. ) ;
#163 = CC_DESIGN_SECURITY_CLASSIFICATION ( #130, ( #71 ) ) ;
#164 = PERSON_AND_ORGANIZATION ( #9, #144 ) ;
#165 = CC_DESIGN_PERSON_AND_ORGANIZATION_ASSIGNMENT ( #122, #174, ( #150 ) ) ;
#166 = PLANE ( 'NONE',  #13 ) ;
#167 = DIRECTION ( 'NONE',  ( 0.000000000000000000, 0.000000000000000000, -1.000000000000000000 ) ) ;
#168 = CALENDAR_DATE ( 2020, 24, 12 ) ;
#169 = CLOSED_SHELL ( 'NONE', ( #114, #40, #124, #80 ) ) ;
#170 = CC_DESIGN_PERSON_AND_ORGANIZATION_ASSIGNMENT ( #26, #65, ( #130 ) ) ;
#171 = ORIENTED_EDGE ( 'NONE', *, *, #160, .T. ) ;
#172 = PERSON_AND_ORGANIZATION ( #9, #144 ) ;
#173 = CALENDAR_DATE ( 2020, 24, 12 ) ;
#174 = PERSON_AND_ORGANIZATION_ROLE ( 'creator' ) ;
#175 = CARTESIAN_POINT ( 'NONE',  ( -3.000000000000000000, 0.000000000000000000, 25.39999999999999858 ) ) ;
ENDSEC;
END-ISO-10303-21;
